Page 1 sur 1

Cereless whisper-The lost fingers

MessagePosté: Dim Juil 13, 2008 6:03 pm
par l'encéphale
George Michaels peut aller se rhabiller, voici les doigts perdu!

le mp3 est dans le player, L'intro selon moi, va comme suis


  Code:
E--10--8-------10--8----------6--4-------6------6----4--3----------------------------------------------------
B---8-----8-----8-----8-------4-----4----4------4----------4------------------------------------------6--8---
G---8-------8---8--------8----5-------5--5------5------------5-----------------------------5--7--8-----------
D---------------------------------------------------------------------6--5h6p5p4h5--6--8---------------------
A---------------------------------------------------------------------------------------------------------------------
E---------------------------------------------------------------------------------------------------------------------





Je m'essaie, mais si les grands maîtres (maryo, simon, c'est vous ça!) veulent me prêter main forte, ce serait apprécié

Billy Jean

MessagePosté: Ven Aoû 15, 2008 10:32 am
par simon cote
C'est exactement cela

Et voici Billy Jean

  Code:
e--------------------------------------------------------12-------
B-----------------------------------------------------------------
G------------11------------11-13--------11-13-14---13-14----14-13-
D---------11------------11-----------11---------------------------
A-9-11-12---------11-12-----------12------------------------------
E-----------------------------------------------------------------

e-----------------------------------------------------------------
B-----------------------------------------------------------------
G------------11------------11-13--11-10-11------------------------
D---------11------------11-----------------11-10-11-12-11---------
A-9-11-12---------11-12-----------------------------------12-11-9-
E-----------------------------------------------------------------