Bannière siteLéger marketing

Introduction de "J'échoue"


Vous avez commencé une partition et vous avez besoin d'aide ou manquez de temps pour la terminer. Venez la déposer ici on verra bien.

Avatar de l’utilisateur

Membre vénérable

Messages: 958

Inscription: Lun Avr 16, 2007 8:47 am

Localisation: Québec

Message Sam Sep 19, 2009 4:40 pm

Introduction de "J'échoue"

Bonjour,

quelqu'un pourrait-il me sortir l'introduction (à la guitare) de "J'échoue" d'Alexandre Désilets ?
J'ai mis la chanson dans le lecteur, et voici le lien de la tablature complète : http://www.partitions101.net/partition/j_echoue

Merci d'avance ! :D
Avatar de l’utilisateur

Gagnant 2009 de...
Gagnant 2009 de...

Messages: 468

Inscription: Mer Fév 11, 2009 3:04 pm

Localisation: Shawinigan (Que voulez-vous!)

Instrument: Boucher Bubinga Goose Jumbo; Martin J12-15

Message Dim Sep 20, 2009 5:30 pm

  Code:
e----------------------------------------------------------------
B----------------------------------------------------------------
G----------------------------------------------------------------
D---9-----9------------9------9------------9-----9---------10----
A-7---9-7---9-7-----10---9-10---9-10-----7---9-7---9-7-------9---
E-------------------------------------------------------------10-


e------------------
B------------------
G------------------
D------9-----9-----
A----7---9-7---9-7-
E------------------


Ou


e-----------------------------------------------------------
B-----------------------------------------------------------
G---4-----4-----------4-----4-----------4-----4---------5---
D-2---4-2---4-2-----5---4-5---4-5-----2---4-2---4-2------4--
A---------------------------------------------------------5-
E-----------------------------------------------------------


e------------------
B------------------
G------4-----4-----
D----2---4-2---4-2-
A------------------
E------------------
Grand est celui qui n'a pas perdu son coeur d'enfant - Mencius
Avatar de l’utilisateur

Membre vénérable

Messages: 958

Inscription: Lun Avr 16, 2007 8:47 am

Localisation: Québec

Message Dim Sep 20, 2009 5:35 pm

Merci ! La deuxième me va bien !
Mais comme la chanson se joue en capo 1, est-ce les mêmes cases ? :roll: :)
Avatar de l’utilisateur

Gagnant 2009 de...
Gagnant 2009 de...

Messages: 468

Inscription: Mer Fév 11, 2009 3:04 pm

Localisation: Shawinigan (Que voulez-vous!)

Instrument: Boucher Bubinga Goose Jumbo; Martin J12-15

Message Dim Sep 20, 2009 5:44 pm

Désolé, je n'avais pas vu le capo 1

Avec capo 1:
  Code:
e-----------------------------------------------------------
B-----------------------------------------------------------
G---3-----3-----------3-----3-----------3-----3---------4---
D-1---3-1---3-1-----4---3-4---3-4-----1---3-1---3-1------3--
A---------------------------------------------------------4-
E-----------------------------------------------------------


e------------------
B------------------
G------3-----3-----
D----1---3-1---3-1-
A------------------
E------------------
Grand est celui qui n'a pas perdu son coeur d'enfant - Mencius
Avatar de l’utilisateur

Membre vénérable

Messages: 958

Inscription: Lun Avr 16, 2007 8:47 am

Localisation: Québec

Message Jeu Sep 24, 2009 4:38 pm

Merci Dracir ! :D
Avatar de l’utilisateur

Membre vénérable

Messages: 958

Inscription: Lun Avr 16, 2007 8:47 am

Localisation: Québec

Message Sam Oct 31, 2009 11:11 am

Re-bonjour.

Finalement, comme je prévois faire cette chanson-là en spectacle, ça serait bien d'avoir une tablature plus complète que celle présente là : http://www.partitions101.net/partition/j_echoue

Non seulement les paroles ne sont pas bonnes (ça, ça va), mais c'est surtout qu'il n'y a pas besoin de capo 1. Par ailleurs, je crois que l'accordage est en Ré.
Dans la tablature du site, il y a la base, mais plusieurs accords manquent.

Y aurait-t-il une âme charitable qui voudrait bien me sortir la tablature la plus complète et la plus fidèle de cette merveilleuse chanson ?
Je vous en serai très reconnaissant.

Merci d'avance ! J'ai bien hâte de voir (et jouer) ça ! :D
Avatar de l’utilisateur

Gagnant 2009 de...
Gagnant 2009 de...

Messages: 468

Inscription: Mer Fév 11, 2009 3:04 pm

Localisation: Shawinigan (Que voulez-vous!)

Instrument: Boucher Bubinga Goose Jumbo; Martin J12-15

Message Mer Nov 04, 2009 8:02 pm

Salut Cyril! J'ai de la difficulté à entendre la guitare à l'arrière.
Je crois que tu peux quand même te débrouiller avec la partition.
Bon spectacle!

  Code:
J’échoue - Alexandre Désilets

Intro:

e-----------------------------------------------------------
B-----------------------------------------------------------
G---4-----4-----------4-----4-----------4-----4---------5---
D-2---4-2---4-2-----5---4-5---4-5-----2---4-2---4-2------4--
A---------------------------------------------------------5-
E-----------------------------------------------------------


e------------------
B------------------
G------4-----4-----
D----2---4-2---4-2-
A------------------
E------------------

(Em)                              G
Chez moi les murs sont comme de l’eau
                            Em/B(X2200X)                      
À force  d’éponger mes journées
                             D/A(X00232)         
Les personnages dans mes tableaux
                       Em/B
À me voir vivre ont décroché

                              G
Mes idées folles devenaient lourdes
  B7                        Em    Emadd9(022002) Em(022003)
Elles avaient perdu leur portée, je sais
             Em              D
Je veux mon puits changé en gourde
 B7                    Em    Emadd9(022002)  Em(022003)  (XXXXX7)
Pouvoir enfin me supporter

                  C        D
Mais encore une fois, j’échoue
          G     B7   Em
J’ai les nuages au visage
           C        D7
Chargé de voix, de tout
          G     B7   Em
Scaphandrier à ton rivage

 C                         D
Comment pourrais-je me permettre
               B7             Em   Em7   A7
Un monde que je ne vois qu’au passage?
 C                         D
Comment pourrais-je me permettre
               B7             Em   Em7   A7     Em   Em7   A7     Am7(X02010)
Un monde que je ne vois qu’au passage?

G   B7  Em       D7(X5453X) B7   Em

G   B7  Em       D7     B7   Em(X750XX)

Em/D#(X650XX) Em/D(X550XX)   Em7/B(X20XXX)       Em7/Bb(X10XXX)  Em7/A(X00XXX)

C   D7  G   B7   Em,  C   D7   Em  Em7   A7   Em   Emadd9(022002) Em(022003)

A      A7....


G             B7        Em          C         D7       B7
Venin venant tordre ma bouche
G                  B7       Em
Il s’est distillé dans mon souffle
            C           D           
Autant que je te rattrapai
               C           Bm
Si j’arrive à toi, je me ferai
G      B7    Em
Racine à ta souche
            C/G(332010)    Bm
Je t’embellirai, douce couleur soie
  G            Bm     Em                C/G        D
Couche après couche, mais je redeviens lourd, si lourd 
              G       B7    Em
Une tonne de bombes à la seconde
           C                 D
À contre jour, l’image est floue
         G         B7     Em
En déphasage, hors de tes ondes


C                         D
Comment pourrais-je me permettre
               B7             Em   Em7   A7
Un monde que je ne vois qu’au passage?
 C                         D
Comment pourrais-je me permettre
               B7             Em   Em7   A7     Em   Em7   A7     Am7(X02010)
Un monde que je ne vois qu’au passage?   Ouh......ouh......ouh....

               D/F#(200232)         Em   D   Dbm/5-(042020)
Encore une fois.... chargeant vers toi…
            C    D        Em
Encore une fo____is, j’échoue
Grand est celui qui n'a pas perdu son coeur d'enfant - Mencius
Avatar de l’utilisateur

Membre vénérable

Messages: 958

Inscription: Lun Avr 16, 2007 8:47 am

Localisation: Québec

Message Sam Nov 07, 2009 6:18 pm

Merci Dracir ! :wink:

Nous allons essayer ça, mais ça m'a l'air d'être très bon !

Je t'en redonnes des nouvelles ! :D

Retourner vers Partitions en cours

Qui est en ligne

Utilisateurs parcourant ce forum: Aucun utilisateur enregistré et 1 invité

cron
Powered by phpBB © 2000, 2002, 2005, 2007 phpBB Group.
Designed by ST Software
Traduction par phpBB-fr.com