Bannière siteLéger marketing

Karkwa - La marche


Vous avez commencé une partition et vous avez besoin d'aide ou manquez de temps pour la terminer. Venez la déposer ici on verra bien.

Petit nouveau

Messages: 1

Inscription: Mer Nov 13, 2013 7:40 pm

Instrument: Jackson Dingy

Message Mer Nov 13, 2013 8:30 pm

Karkwa - La marche

Bonjour à tous! Depuis quelques années, moi et mes amis utilisons partitions101 pour nos soirées de feux! Je voulais y ajouter ma propre contribution mais je n'ai toujours pas recu mon code d'activation pour le site.... c'est la que j'ai remarqué qu'il y avait un forum hehe... alors me voila!

Comme c'est le forum "en cours", l'intro me semble bon mais je ne suis pas sur à 100% de ce passage:
  Code:
---------------------------
---------------------------
-4h0---3h2-0---0-----------
-2---0-2---0-----3p0-------
-2-----1---2-----------3-2-
-----------3-3-------3-----


Aussi pour le reste si il y a des modifications à faire je suis toute ouie :)
  Code:
G:        32003x   C/G:       33201x
G7:        32303x   D/A:     554x3x
Gm/B:   x1003x   Eb/Bb:  665x4x
Em7:        02203x   Gsus4:  x3003x
Cmadd9:x3103x   G5:       x5003x
G#-5:     4301xx

Capo 1
Intro:
e|----------------------------------------------------------------
B|-------0-----------0--------------------------------------------
G|---0h2---0-----0h2-0--0-------------0-4h0---3h2-0---0-----------
D|-2---------2-0-----0----3p0-------2---2---0-2---0-----3p0-------
A|-------------3-----2----------3-2-----2-----1---2-----------3-2-
E|-------------------3--------3-------------------3-3-------3-----
                      G    G7    Gsus4  Em
e|----------------------------------------------------------------
B|-------0-----------0-----------------------------3--3--3--------
G|---0h2---0-----0h2-0--0-------------0-4h0---3h2--0--0--0--------
D|-2---------2-0-----0----3p0-------2---2---0-2----0--0--0--------
A|-------------3-----2----------3-2-----2-----1----1--3--5--------
E|-------------------3--------3-----------------------------------


G
J'ai attaché mes souliers
J'ai tourné la tête
Gm/B
Un pape en complet rouge salut lentement
G
Les fidèles à genoux devant le carrosse anti-balles
Gm/B
Se donnent jusqu'au sang... Donnent jusqu'au sang...

G7
À la boutique juste en face
Em7
Un homme décape
Cmadd9
un plancher d'ébène

Tout peinturé de blanc
G7
il se donne tant de peine
Gm/B                  Gsus4          G5
Gratte jusqu'au sang Gratte jusqu'au sang...

C/G    D/A    Eb/Bb
haaaaa...
C/G    D/A
hahaaa...
C/G    D/A    Eb/Bb
hahaaa...

Intro: Avec accords.


G
Les enfants traversent comme des météores
Gm/B
Poussé par un ressort j'me cherche un fort tranquille
G
Les speakers feed et crachent des prières du haut d'une tour
Gm/B
Se sentir comme une marionnette qui à le pas lourd

G7 
Avec la vierge offensée
Em7
Un vendeur de l'art
Cmadd9
se fait quelques dollars
G7
Je reste là à penser que je
Gm/B          Gsus4       G5
me suis fait avoir.....
 

C/G    D/A    Eb/Bb
haaaaa...
C/G    D/A
hahaaa...
C/G    D/A    Eb/Bb
hahaaa...
C/G    D/A
hahaaaaaaaaaaaaaaaaaaaaaaaaa...

Intro: Avec accords.

G#-5

Le cris des indigènes
Mon coeur qui frappe fort
Un brouhaha bordélique
Un coma éthylique
Le cris des indigènes
Mon coeur qui frappe fort

Intro: avec accords

Forrrrrrrrrt
 
Forrrrrrrrrt
 
Forrrrrrrrrt
 
Forrrrrrrrrt


Je sais pas si ca prend énormément de temps recevoir une confirmation pour partitions101.net mais vu que mon activation au forum a été presque instantannée... c'est peut-être un problème de mon coté. Si quelqu'un voudrait bien l'ajouter au site ca serait sympa, sinon tant pis!
Pour finir un gros merci a tous ceux qui ont contribuer au site et qui ont rendu ma vie bien plus simple pendant toute ces années! <3 (Et un petit merci spécial à Guy Ricard pour ses partitions de karkwa!)
Avatar de l’utilisateur

L'équipe forum101 admin
L'équipe forum101 admin

Messages: 3836

Inscription: Lun Avr 09, 2007 3:52 am

Localisation: Rive-sud baby.

Instrument: Guitare Alambra 5p cut. élec.

Message Mar Nov 19, 2013 1:21 am

Re: Karkwa - La marche

Bienvenue sur le forum101 machach 0.02

Partition101 et le Forum101 sont deux sites associés mais indépendant donc impossible pour nous de rajouter quelques chose sur le site.

Retourner vers Partitions en cours

Qui est en ligne

Utilisateurs parcourant ce forum: Aucun utilisateur enregistré et 1 invité

cron
Powered by phpBB © 2000, 2002, 2005, 2007 phpBB Group.
Designed by ST Software
Traduction par phpBB-fr.com