Bannière siteLéger marketing

Le début de nothing else matters


Vous avez commencé une partition et vous avez besoin d'aide ou manquez de temps pour la terminer. Venez la déposer ici on verra bien.

Avatar de l’utilisateur

L'équipe forum101
L'équipe forum101

Messages: 964

Inscription: Sam Avr 14, 2007 5:01 am

Localisation: Québec / Québec / Canada

Message Mar Mai 29, 2007 6:56 am

Le début de nothing else matters

bon.. me vla rendu la..
  Code:

|-----------0--------|-----------0--------|-----------0--------|
|--------0-----0-----|--------0-----0-----|--------0-----0-----|
|-----0-----------0--|-----0-----------0--|-----0-----------0--|
|--------------------|--------------------|--------------------|
|--------------------|--------------------|--------------------|
|--0-----------------|--0-----------------|--0-----------------|

|-----------0-----7--|--7--------7p0-------|--------7--8--7h87\5-|--7--5/2------|
|--------0-----0-----|-----0-----0---0-----|--0-----0--0---------|--0--------5--|
|-----0--------------|--------0---------0--|-----0---------------|--------------|
|--------------------|---------------------|---------------------|--------------|
|--------------------|---------------------|---------------------|--------------|
|--0-----------------|--0------------------|--0------------------|--------------|

|-----------2p0-------|-----------0--0--0--|--0----------3p0-----0--|
|--5-----5------5-----|--------5-----5--5--|--5------5-------5---5--|
|-----5------------5--|-----5--------5--5--|--5----5---5-------5-5--|
|---------------------|--------------------|------------------------|
|--0------------------|--0-----------0--2--|--3--3---------------3--|
|---------------------|--------------------|------------------------|



J'en ai pris un bout sur une partition.. mais, jveux l'adapter a une version acoustique, celle que l,on retrouve sur le site de notre ami http://www.guitarevideos.com/

La suite, je pourrais la jouer comment ?
********************
La difficulté de réussir ne fait qu'ajouter à la nécessité d'entreprendre. Beaumarchais.

Visitez le Saguenay : www.saguenayrama.ca !
Leçons de guitare : www.saguenayrama.ca/blog/guitare
*************************

Moyen parleur

Messages: 83

Inscription: Sam Avr 14, 2007 7:59 pm

Localisation: Québec

Message Mar Mai 29, 2007 11:32 am

Tu veux la jouer en picking tout le long ?
en mix des 2 ?
ou tu veux transposer sa en accord ?

Je saisie plus ou moins ta question...
Avatar de l’utilisateur

L'équipe forum101
L'équipe forum101

Messages: 964

Inscription: Sam Avr 14, 2007 5:01 am

Localisation: Québec / Québec / Canada

Message Mar Mai 29, 2007 12:26 pm

le début, en picking.. le reste.. comme sur le site.

par ailleurs, voila ce que jai deja de fait :

  Code:
e---------0-----------0-----------0-----------0-----
B-------0---0-------0---0-------0---0-------0---0---
G-----0-------0---0-------0---0-------0---0---------
D---------------------------------------------------
A---------------------------------------------------
E---0-----------0-----------0-----------0-----------


e---7-7------7p0---------7-8-7h8p7p5-7p5p0------------------
B-------0--------0-------------------------5----5-7p5~-p0---
G---------0--------0---0---------------------5--------------
D-----------------------------------------------------------
A--------------------------------------------0--------------
E-----0--------------0--------------------------------------


e---------0-----------------3-----p0-----------5-----p0----------12---------
B-------5----5--5--5----5-----5-------7----7-----7------------12----(12)----
G-----5------5--5--5--5---5-----5-----7--7---7-----7-------12-----------(12)
D---------------------------------------------------------------------------
A---0--------0--2--3------------------5-------------------------------------
E--------------------------------------------------------0------------------


e---------0-----------0-----------0-------
B-------0---0-------0---0-------0---0-----
G-----0-------0---0-------0---0-------0---
D-----------------------------------------
A-----------------------------------------
E---0-----------0-----------0-----------0 laissez sonner fort-


e--------(0)-----------------------(0)-----------------
B---------8-------7------5----------8-------7------5---
G-------9---------7------5--------9---------7------5---
D-----9---------7------5--------9---------7------5-----
A---7---------5------3--------7---------5------3-------
E---------------------------0--------------------------

                                                                    Em
e-----------7----5--------3--------3--------2--------------0--------0---
B-----------8------7--------5--------3--------4----------0---0------0---
G---------9----------7--------5--------4--------2-(p0)-0-------0----0---
D-------9-----------------------------------------------------------2---
A-----7--------------------------3--------2-------------------------2---
E---0----------5--------3----------------------------0-----------0--0---



J'ai pas inventé grand chose .. m'inspirant a 90% de ce qui étais deja fait.

ca sonne pas mal.. mais cé pas encore ca..

essaye le.
********************
La difficulté de réussir ne fait qu'ajouter à la nécessité d'entreprendre. Beaumarchais.

Visitez le Saguenay : www.saguenayrama.ca !
Leçons de guitare : www.saguenayrama.ca/blog/guitare
*************************

Moyen parleur

Messages: 83

Inscription: Sam Avr 14, 2007 7:59 pm

Localisation: Québec

Message Mar Mai 29, 2007 12:48 pm

Pour quelqu'un que je croyais qui commencais :wink:

  Code:
e---------0-----------------3-----p0-----------5-----p0----------12---------
B-------5----5--5--5----5-----5-------7----7-----7------------12----(12)----
G-----5------5--5--5--5---5-----5-----7--7---7-----7-------12-----------(12)
D---------------------------------------------------------------------------
A---0--------0--2--3------------------5-------------------------------------
E--------------------------------------------------------0------------------


C'est pas une ligne évidente à jouer :roll:
Avatar de l’utilisateur

L'équipe forum101
L'équipe forum101

Messages: 964

Inscription: Sam Avr 14, 2007 5:01 am

Localisation: Québec / Québec / Canada

Message Mar Mai 29, 2007 2:13 pm

J'y arrive difficilement aussi.. en décomposant disons.
********************
La difficulté de réussir ne fait qu'ajouter à la nécessité d'entreprendre. Beaumarchais.

Visitez le Saguenay : www.saguenayrama.ca !
Leçons de guitare : www.saguenayrama.ca/blog/guitare
*************************
Avatar de l’utilisateur

L'équipe forum101 admin
L'équipe forum101 admin

Messages: 977

Inscription: Sam Avr 14, 2007 10:00 pm

Localisation: 127.0.0.1

Instrument: Guitare Takamine EG128SC

Message Mar Mai 29, 2007 5:47 pm

Si seulement j'allais au party je te la montrerais....
Bleu comme le Saint-Laurent Image
Blanc comme l'hiver Image
Rouge comme le sang qui nous coule à travers Image
Avatar de l’utilisateur

L'équipe forum101
L'équipe forum101

Messages: 964

Inscription: Sam Avr 14, 2007 5:01 am

Localisation: Québec / Québec / Canada

Message Mar Mai 29, 2007 6:25 pm

l'encéphale a écrit:Si seulement j'allais au party je te la montrerais....


Ben, spo ben ben compliqué .. tu embarques avec qqn qui viens.. na surement qui vont se faire plaisir a t'embarquer.

Informe toi..
********************
La difficulté de réussir ne fait qu'ajouter à la nécessité d'entreprendre. Beaumarchais.

Visitez le Saguenay : www.saguenayrama.ca !
Leçons de guitare : www.saguenayrama.ca/blog/guitare
*************************

Petit nouveau

Messages: 3

Inscription: Dim Juil 13, 2008 6:41 am

Localisation: sur terre

Message Jeu Juil 17, 2008 2:39 pm

vous vous embêté bien les gars a l'original c'es une chanson qui ce joue aussi bien a la gratte electrique qu'à la seche, qu'à la contrebasse 8)
d'ailleur petit lien
[youtube]kmn1LvbqsaM[/youtube]
il vaut mieux être saoult que con, ca dure moins longtemps!!!!!!!!!!!!!!!!!!!!!!!!!!!!!!!!!!!!!!!!
Avatar de l’utilisateur

L'équipe forum101 admin
L'équipe forum101 admin

Messages: 1254

Inscription: Mar Jan 29, 2008 9:38 pm

Localisation: Rive-Sud - Brossard

Instrument: Norman & Gibson.

Message Jeu Juil 17, 2008 3:31 pm

tonio1611 a écrit:vous vous embêté bien les gars a l'original c'es une chanson qui ce joue aussi bien a la gratte electrique qu'à la seche, qu'à la contrebasse 8)
d'ailleur petit lien
http://fr.youtube.com/watch?v=kmn1Lvbqs ... re=related

[/youtube]


au piano aussi...

[youtube]4sZK4Hd28VA[/youtube]
Avatar de l’utilisateur

Membre vénérable

Messages: 1281

Inscription: Sam Avr 14, 2007 10:27 am

Localisation: St-Charles-Borromée, Québec

Instrument: Guitare, Violon

Message Jeu Juil 17, 2008 3:42 pm

j'aime bien mieux avec la contrebasse... pis maudit que le vidéoclip est bon!!!

Retourner vers Partitions en cours

Qui est en ligne

Utilisateurs parcourant ce forum: Aucun utilisateur enregistré et 0 invités

cron
Powered by phpBB © 2000, 2002, 2005, 2007 phpBB Group.
Designed by ST Software
Traduction par phpBB-fr.com